  0
SECTION
  2
HEADER
  9
$ACADVER
  1
AC1015
  9
$ACADMAINTVER
 70
     6
  9
$DWGCODEPAGE
  3
ANSI_1254
  9
$INSBASE
 10
0.0
 20
0.0
 30
0.0
  9
$EXTMIN
 10
0.0
 20
0.0
 30
0.0
  9
$EXTMAX
 10
279.4
 20
215.9
 30
0.0
  9
$LIMMIN
 10
0.0
 20
0.0
  9
$LIMMAX
 10
279.4
 20
215.9
  9
$ORTHOMODE
 70
     0
  9
$REGENMODE
 70
     1
  9
$FILLMODE
 70
     1
  9
$QTEXTMODE
 70
     0
  9
$MIRRTEXT
 70
     1
  9
$LTSCALE
 40
1.0
  9
$ATTMODE
 70
     1
  9
$TEXTSIZE
 40
3.5
  9
$TRACEWID
 40
1.0
  9
$TEXTSTYLE
  7
Standard
  9
$CLAYER
  8
0
  9
$CELTYPE
  6
ByLayer
  9
$CECOLOR
 62
   256
  9
$CELTSCALE
 40
1.0
  9
$DISPSILH
 70
     0
  9
$DIMSCALE
 40
1.0
  9
$DIMASZ
 40
3.5
  9
$DIMEXO
 40
1.0
  9
$DIMDLI
 40
3.75
  9
$DIMRND
 40
0.0
  9
$DIMDLE
 40
0.0
  9
$DIMEXE
 40
1.0
  9
$DIMTP
 40
0.0
  9
$DIMTM
 40
0.0
  9
$DIMTXT
 40
3.5
  9
$DIMCEN
 40
2.5
  9
$DIMTSZ
 40
0.0
  9
$DIMTOL
 70
     0
  9
$DIMLIM
 70
     0
  9
$DIMTIH
 70
     1
  9
$DIMTOH
 70
     1
  9
$DIMSE1
 70
     0
  9
$DIMSE2
 70
     0
  9
$DIMTAD
 70
     1
  9
$DIMZIN
 70
     0
  9
$DIMBLK
  1

  9
$DIMASO
 70
     1
  9
$DIMSHO
 70
     1
  9
$DIMPOST
  1

  9
$DIMAPOST
  1

  9
$DIMALT
 70
     0
  9
$DIMALTD
 70
     3
  9
$DIMALTF
 40
0.0393700787
  9
$DIMLFAC
 40
1.0
  9
$DIMTOFL
 70
     1
  9
$DIMTVP
 40
0.0
  9
$DIMTIX
 70
     0
  9
$DIMSOXD
 70
     0
  9
$DIMSAH
 70
     0
  9
$DIMBLK1
  1

  9
$DIMBLK2
  1

  9
$DIMSTYLE
  2
ISO-25
  9
$DIMCLRD
 70
     0
  9
$DIMCLRE
 70
     0
  9
$DIMCLRT
 70
     0
  9
$DIMTFAC
 40
1.0
  9
$DIMGAP
 40
1.524
  9
$DIMJUST
 70
     0
  9
$DIMSD1
 70
     0
  9
$DIMSD2
 70
     0
  9
$DIMTOLJ
 70
     0
  9
$DIMTZIN
 70
     0
  9
$DIMALTZ
 70
     0
  9
$DIMALTTZ
 70
     0
  9
$DIMUPT
 70
     0
  9
$DIMDEC
 70
     2
  9
$DIMTDEC
 70
     2
  9
$DIMALTU
 70
     2
  9
$DIMALTTD
 70
     3
  9
$DIMTXSTY
  7
Standard
  9
$DIMAUNIT
 70
     0
  9
$DIMADEC
 70
     2
  9
$DIMALTRND
 40
0.0
  9
$DIMAZIN
 70
     0
  9
$DIMDSEP
 70
    44
  9
$DIMATFIT
 70
     3
  9
$DIMFRAC
 70
     0
  9
$DIMLDRBLK
  1

  9
$DIMLUNIT
 70
     2
  9
$DIMLWD
 70
    -2
  9
$DIMLWE
 70
    -2
  9
$DIMTMOVE
 70
     0
  9
$LUNITS
 70
     2
  9
$LUPREC
 70
     2
  9
$SKETCHINC
 40
1.0
  9
$FILLETRAD
 40
10.0
  9
$AUNITS
 70
     0
  9
$AUPREC
 70
     2
  9
$MENU
  1
.
  9
$ELEVATION
 40
0.0
  9
$PELEVATION
 40
0.0
  9
$THICKNESS
 40
0.0
  9
$LIMCHECK
 70
     0
  9
$CHAMFERA
 40
0.0
  9
$CHAMFERB
 40
0.0
  9
$CHAMFERC
 40
0.0
  9
$CHAMFERD
 40
0.0
  9
$SKPOLY
 70
     0
  9
$TDCREATE
 40
2459935.699900231
  9
$TDUCREATE
 40
2459935.574900231
  9
$TDUPDATE
 40
2459935.699900417
  9
$TDUUPDATE
 40
2459935.574900417
  9
$TDINDWG
 40
0.0000000116
  9
$TDUSRTIMER
 40
0.0000000116
  9
$USRTIMER
 70
     1
  9
$ANGBASE
 50
0.0
  9
$ANGDIR
 70
     0
  9
$PDMODE
 70
     0
  9
$PDSIZE
 40
-1.0
  9
$PLINEWID
 40
0.0
  9
$SPLFRAME
 70
     0
  9
$SPLINETYPE
 70
     6
  9
$SPLINESEGS
 70
     8
  9
$HANDSEED
  5
ED
  9
$SURFTAB1
 70
     6
  9
$SURFTAB2
 70
     6
  9
$SURFTYPE
 70
     6
  9
$SURFU
 70
     6
  9
$SURFV
 70
     6
  9
$UCSBASE
  2

  9
$UCSNAME
  2

  9
$UCSORG
 10
0.0
 20
0.0
 30
0.0
  9
$UCSXDIR
 10
1.0
 20
0.0
 30
0.0
  9
$UCSYDIR
 10
0.0
 20
1.0
 30
0.0
  9
$UCSORTHOREF
  2

  9
$UCSORTHOVIEW
 70
     0
  9
$UCSORGTOP
 10
0.0
 20
0.0
 30
0.0
  9
$UCSORGBOTTOM
 10
0.0
 20
0.0
 30
0.0
  9
$UCSORGLEFT
 10
0.0
 20
0.0
 30
0.0
  9
$UCSORGRIGHT
 10
0.0
 20
0.0
 30
0.0
  9
$UCSORGFRONT
 10
0.0
 20
0.0
 30
0.0
  9
$UCSORGBACK
 10
0.0
 20
0.0
 30
0.0
  9
$PUCSBASE
  2

  9
$PUCSNAME
  2

  9
$PUCSORG
 10
0.0
 20
0.0
 30
0.0
  9
$PUCSXDIR
 10
1.0
 20
0.0
 30
0.0
  9
$PUCSYDIR
 10
0.0
 20
1.0
 30
0.0
  9
$PUCSORTHOREF
  2

  9
$PUCSORTHOVIEW
 70
     0
  9
$PUCSORGTOP
 10
0.0
 20
0.0
 30
0.0
  9
$PUCSORGBOTTOM
 10
0.0
 20
0.0
 30
0.0
  9
$PUCSORGLEFT
 10
0.0
 20
0.0
 30
0.0
  9
$PUCSORGRIGHT
 10
0.0
 20
0.0
 30
0.0
  9
$PUCSORGFRONT
 10
0.0
 20
0.0
 30
0.0
  9
$PUCSORGBACK
 10
0.0
 20
0.0
 30
0.0
  9
$USERI1
 70
     0
  9
$USERI2
 70
     0
  9
$USERI3
 70
     0
  9
$USERI4
 70
     0
  9
$USERI5
 70
     0
  9
$USERR1
 40
0.0
  9
$USERR2
 40
0.0
  9
$USERR3
 40
0.0
  9
$USERR4
 40
0.0
  9
$USERR5
 40
0.0
  9
$WORLDVIEW
 70
     1
  9
$SHADEDGE
 70
     3
  9
$SHADEDIF
 70
    70
  9
$TILEMODE
 70
     1
  9
$MAXACTVP
 70
    64
  9
$PINSBASE
 10
0.0
 20
0.0
 30
0.0
  9
$PLIMCHECK
 70
     0
  9
$PEXTMIN
 10
1.0000000000E+20
 20
1.0000000000E+20
 30
1.0000000000E+20
  9
$PEXTMAX
 10
-1.0000000000E+20
 20
-1.0000000000E+20
 30
-1.0000000000E+20
  9
$PLIMMIN
 10
0.0
 20
0.0
  9
$PLIMMAX
 10
420.0
 20
297.0
  9
$UNITMODE
 70
     0
  9
$VISRETAIN
 70
     1
  9
$PLINEGEN
 70
     0
  9
$PSLTSCALE
 70
     1
  9
$TREEDEPTH
 70
  3020
  9
$CMLSTYLE
  2
Standard
  9
$CMLJUST
 70
     0
  9
$CMLSCALE
 40
20.0
  9
$PROXYGRAPHICS
 70
     1
  9
$MEASUREMENT
 70
     1
  9
$CELWEIGHT
370
    -1
  9
$ENDCAPS
280
     0
  9
$JOINSTYLE
280
     0
  9
$LWDISPLAY
290
     1
  9
$INSUNITS
 70
     4
  9
$HYPERLINKBASE
  1

  9
$STYLESHEET
  1

  9
$XEDIT
290
     1
  9
$CEPSNTYPE
380
     0
  9
$PSTYLEMODE
290
     1
  9
$FINGERPRINTGUID
  2
{52cb7a8f-3395-4af1-94ce-aefe53a72525}
  9
$VERSIONGUID
  2
{FAEB1C32-E019-11D5-929B-00C0DF256EC4}
  9
$EXTNAMES
290
     1
  9
$PSVPSCALE
 40
0.0
  9
$OLESTARTUP
290
     0
  0
ENDSEC
  0
SECTION
  2
CLASSES
  0
CLASS
  1
ACDBDICTIONARYWDFLT
  2
AcDbDictionaryWithDefault
  3
ObjectDBX Classes
 90
        0
280
     0
281
     0
  0
CLASS
  1
VISUALSTYLE
  2
AcDbVisualStyle
  3
ObjectDBX Classes
 90
     4095
280
     0
281
     0
  0
CLASS
  1
MATERIAL
  2
AcDbMaterial
  3
ObjectDBX Classes
 90
     1153
280
     0
281
     0
  0
CLASS
  1
SCALE
  2
AcDbScale
  3
ObjectDBX Classes
 90
     1153
280
     0
281
     0
  0
CLASS
  1
TABLESTYLE
  2
AcDbTableStyle
  3
ObjectDBX Classes
 90
     4095
280
     0
281
     0
  0
CLASS
  1
MLEADERSTYLE
  2
AcDbMLeaderStyle
  3
ACDB_MLEADERSTYLE_CLASS
 90
     4095
280
     0
281
     0
  0
CLASS
  1
SUN
  2
AcDbSun
  3
SCENEOE
 90
     1153
280
     0
281
     0
  0
CLASS
  1
ACDBPLACEHOLDER
  2
AcDbPlaceHolder
  3
ObjectDBX Classes
 90
        0
280
     0
281
     0
  0
CLASS
  1
LAYOUT
  2
AcDbLayout
  3
ObjectDBX Classes
 90
        0
280
     0
281
     0
  0
ENDSEC
  0
SECTION
  2
TABLES
  0
TABLE
  2
VPORT
  5
8
330
0
100
AcDbSymbolTable
 70
     1
  0
VPORT
  5
29
330
8
100
AcDbSymbolTableRecord
100
AcDbViewportTableRecord
  2
*Active
 70
     0
 10
0.0
 20
0.0
 11
1.0
 21
1.0
 12
139.7
 22
107.95
 13
0.0
 23
0.0
 14
10.0
 24
10.0
 15
10.0
 25
10.0
 16
0.0
 26
0.0
 36
1.0
 17
0.0
 27
0.0
 37
0.0
 40
215.9
 41
1.2941176471
 42
50.0
 43
0.0
 44
0.0
 50
0.0
 51
0.0
 71
     0
 72
  2000
 73
     1
 74
     3
 75
     0
 76
     0
 77
     0
 78
     0
281
     0
 65
     1
110
0.0
120
0.0
130
0.0
111
1.0
121
0.0
131
0.0
112
0.0
122
1.0
132
0.0
 79
     0
146
0.0
  0
ENDTAB
  0
TABLE
  2
LTYPE
  5
5
330
0
100
AcDbSymbolTable
 70
     6
  0
LTYPE
  5
14
330
5
100
AcDbSymbolTableRecord
100
AcDbLinetypeTableRecord
  2
ByBlock
 70
     0
  3

 72
    65
 73
     0
 40
0.0
  0
LTYPE
  5
15
330
5
100
AcDbSymbolTableRecord
100
AcDbLinetypeTableRecord
  2
ByLayer
 70
     0
  3

 72
    65
 73
     0
 40
0.0
  0
LTYPE
  5
16
330
5
100
AcDbSymbolTableRecord
100
AcDbLinetypeTableRecord
  2
Continuous
 70
     0
  3
Solid line
 72
    65
 73
     0
 40
0.0
  0
LTYPE
  5
6E
330
5
100
AcDbSymbolTableRecord
100
AcDbLinetypeTableRecord
  2
HIDDEN
 70
     0
  3
Hidden __ __ __ __ __ __ __ __ __ __ __ __ __ __
 72
    65
 73
     2
 40
1.905
 49
1.27
 74
     0
 49
-0.635
 74
     0
  0
LTYPE
  5
6F
330
5
100
AcDbSymbolTableRecord
100
AcDbLinetypeTableRecord
  2
PHANTOM
 70
     0
  3
Phantom ______  __  __  ______  __  __  ______
 72
    65
 73
     6
 40
12.7
 49
6.35
 74
     0
 49
-1.27
 74
     0
 49
1.27
 74
     0
 49
-1.27
 74
     0
 49
1.27
 74
     0
 49
-1.27
 74
     0
  0
LTYPE
  5
70
330
5
100
AcDbSymbolTableRecord
100
AcDbLinetypeTableRecord
  2
CENTER
 70
     0
  3
Center ____ _ ____ _ ____ _ ____ _ ____ _ ____
 72
    65
 73
     4
 40
10.16
 49
6.35
 74
     0
 49
-1.27
 74
     0
 49
1.27
 74
     0
 49
-1.27
 74
     0
  0
LTYPE
  5
71
330
5
100
AcDbSymbolTableRecord
100
AcDbLinetypeTableRecord
  2
CENTERX2
 70
     0
  3
Center (2x) ________  __  ________  __  _____
 72
    65
 73
     4
 40
20.32
 49
12.7
 74
     0
 49
-2.54
 74
     0
 49
2.54
 74
     0
 49
-2.54
 74
     0
  0
LTYPE
  5
72
330
5
100
AcDbSymbolTableRecord
100
AcDbLinetypeTableRecord
  2
DOT2
 70
     0
  3
Dot (.5x) ........................................
 72
    65
 73
     2
 40
0.635
 49
0.0
 74
     0
 49
-0.635
 74
     0
  0
ENDTAB
  0
TABLE
  2
LAYER
  5
2
330
0
100
AcDbSymbolTable
 70
    17
  0
LAYER
  5
10
330
2
100
AcDbSymbolTableRecord
100
AcDbLayerTableRecord
  2
0
 70
     0
 62
     7
  6
Continuous
370
    -3
390
F
  0
LAYER
  5
73
330
2
100
AcDbSymbolTableRecord
100
AcDbLayerTableRecord
  2
FORMAT
 70
     0
 62
     7
  6
Continuous
370
    -3
390
F
  0
LAYER
  5
74
330
2
100
AcDbSymbolTableRecord
100
AcDbLayerTableRecord
  2
YARDIMCI_GEOMETRI
 70
     0
 62
    -6
  6
Continuous
290
     0
370
    -3
390
F
  0
LAYER
  5
75
330
2
100
AcDbSymbolTableRecord
100
AcDbLayerTableRecord
  2
SAYFA_CERCEVESI
 70
     0
 62
     7
  6
Continuous
370
    25
390
F
  0
LAYER
  5
76
330
2
100
AcDbSymbolTableRecord
100
AcDbLayerTableRecord
  2
ANTET
 70
     0
 62
     7
  6
Continuous
370
    -3
390
F
  0
LAYER
  5
77
330
2
100
AcDbSymbolTableRecord
100
AcDbLayerTableRecord
  2
OLCU
 70
     0
 62
   150
  6
Continuous
370
    -3
390
F
  0
LAYER
  5
78
330
2
100
AcDbSymbolTableRecord
100
AcDbLayerTableRecord
  2
METIN
 70
     0
 62
    96
  6
Continuous
370
    -3
390
F
  0
LAYER
  5
79
330
2
100
AcDbSymbolTableRecord
100
AcDbLayerTableRecord
  2
BALON
 70
     0
 62
     5
  6
Continuous
370
    -3
390
F
  0
LAYER
  5
7A
330
2
100
AcDbSymbolTableRecord
100
AcDbLayerTableRecord
  2
VURGU
 70
     0
 62
     7
  6
Continuous
370
    -3
390
F
  0
LAYER
  5
7B
330
2
100
AcDbSymbolTableRecord
100
AcDbLayerTableRecord
  2
SILIK
 70
     0
 62
     7
  6
Continuous
370
    -3
390
F
  0
LAYER
  5
7C
330
2
100
AcDbSymbolTableRecord
100
AcDbLayerTableRecord
  2
MODEL
 70
     0
 62
     7
  6
Continuous
370
    -3
390
F
  0
LAYER
  5
7D
330
2
100
AcDbSymbolTableRecord
100
AcDbLayerTableRecord
  2
DETAYLANDıRMA
 70
     0
 62
   190
  6
Continuous
370
    -3
390
F
  0
LAYER
  5
7E
330
2
100
AcDbSymbolTableRecord
100
AcDbLayerTableRecord
  2
TOLERANS
 70
     0
 62
   230
  6
Continuous
370
    -3
390
F
  0
LAYER
  5
7F
330
2
100
AcDbSymbolTableRecord
100
AcDbLayerTableRecord
  2
MERKEZ_CIZGILERI
 70
     0
 62
    30
  6
Continuous
370
    -3
390
F
  0
LAYER
  5
80
330
2
100
AcDbSymbolTableRecord
100
AcDbLayerTableRecord
  2
KESIT-DETAY_CIZGILERI
 70
     0
 62
     7
  6
Continuous
370
    -3
390
F
  0
LAYER
  5
81
330
2
100
AcDbSymbolTableRecord
100
AcDbLayerTableRecord
  2
\U+041E\U+0421\U+0415\U+0412\U+042B\U+0415
 70
     0
 62
     7
  6
Continuous
370
    -3
390
F
  0
LAYER
  5
82
330
2
100
AcDbSymbolTableRecord
100
AcDbLayerTableRecord
  2
\U+0412\U+041E\U+0414\U+042F\U+041D\U+042B\U+0415_\U+0417\U+041D\U+0410\U+041A\U+0418
 70
     0
 62
    11
  6
Continuous
370
    -3
390
F
  0
ENDTAB
  0
TABLE
  2
STYLE
  5
3
330
0
100
AcDbSymbolTable
 70
     1
  0
STYLE
  5
11
330
3
100
AcDbSymbolTableRecord
100
AcDbTextStyleTableRecord
  2
Standard
 70
     0
 40
0.0
 41
1.0
 50
0.0
 71
     0
 42
3.5
  3
txt
  4

  0
ENDTAB
  0
TABLE
  2
VIEW
  5
6
330
0
100
AcDbSymbolTable
 70
     0
  0
ENDTAB
  0
TABLE
  2
UCS
  5
7
330
0
100
AcDbSymbolTable
 70
     0
  0
ENDTAB
  0
TABLE
  2
APPID
  5
9
330
0
100
AcDbSymbolTable
 70
     1
  0
APPID
  5
12
330
9
100
AcDbSymbolTableRecord
100
AcDbRegAppTableRecord
  2
ACAD
 70
     0
  0
ENDTAB
  0
TABLE
  2
DIMSTYLE
  5
A
330
0
100
AcDbSymbolTable
 70
     1
100
AcDbDimStyleTable
  0
DIMSTYLE
105
27
330
A
100
AcDbSymbolTableRecord
100
AcDbDimStyleTableRecord
  2
ISO-25
 70
     0
 41
2.5
 42
0.625
 43
3.75
 44
1.25
 73
     0
 74
     0
 77
     1
 78
     8
140
2.5
141
2.5
143
0.0393700787
147
0.625
171
     3
172
     1
178
     0
271
     2
272
     2
274
     3
278
    44
283
     0
284
     8
340
11
  0
ENDTAB
  0
TABLE
  2
BLOCK_RECORD
  5
1
330
0
100
AcDbSymbolTable
 70
     5
  0
BLOCK_RECORD
  5
1F
330
1
100
AcDbSymbolTableRecord
100
AcDbBlockTableRecord
  2
*Model_Space
340
22
  0
BLOCK_RECORD
  5
1B
330
1
100
AcDbSymbolTableRecord
100
AcDbBlockTableRecord
  2
*Paper_Space
340
1E
  0
BLOCK_RECORD
  5
23
330
1
100
AcDbSymbolTableRecord
100
AcDbBlockTableRecord
  2
*Paper_Space0
340
26
  0
BLOCK_RECORD
  5
97
330
1
100
AcDbSymbolTableRecord
100
AcDbBlockTableRecord
  2
SW_CENTERMARKSYMBOL_0
340
0
102
{BLKREFS
331
A2
102
}
  0
BLOCK_RECORD
  5
AC
330
1
100
AcDbSymbolTableRecord
100
AcDbBlockTableRecord
  2
SW_CENTERMARKSYMBOL_1
340
0
102
{BLKREFS
331
B7
102
}
  0
BLOCK_RECORD
  5
BF
330
1
100
AcDbSymbolTableRecord
100
AcDbBlockTableRecord
  2
SW_CENTERMARKSYMBOL_2
340
0
102
{BLKREFS
331
CA
102
}
  0
BLOCK_RECORD
  5
D2
330
1
100
AcDbSymbolTableRecord
100
AcDbBlockTableRecord
  2
SW_CENTERMARKSYMBOL_3
340
0
102
{BLKREFS
331
DD
102
}
  0
ENDTAB
  0
ENDSEC
  0
SECTION
  2
BLOCKS
  0
BLOCK
  5
20
330
1F
100
AcDbEntity
  8
0
100
AcDbBlockBegin
  2
*Model_Space
 70
     0
 10
0.0
 20
0.0
 30
0.0
  3
*Model_Space
  1

  0
ENDBLK
  5
21
330
1F
100
AcDbEntity
  8
0
100
AcDbBlockEnd
  0
BLOCK
  5
1C
330
1B
100
AcDbEntity
 67
     1
  8
0
100
AcDbBlockBegin
  2
*Paper_Space
 70
     0
 10
0.0
 20
0.0
 30
0.0
  3
*Paper_Space
  1

  0
ENDBLK
  5
1D
330
1B
100
AcDbEntity
 67
     1
  8
0
100
AcDbBlockEnd
  0
BLOCK
  5
24
330
23
100
AcDbEntity
  8
0
100
AcDbBlockBegin
  2
*Paper_Space0
 70
     0
 10
0.0
 20
0.0
 30
0.0
  3
*Paper_Space0
  1

  0
ENDBLK
  5
25
330
23
100
AcDbEntity
  8
0
100
AcDbBlockEnd
  0
BLOCK
  5
98
330
97
100
AcDbEntity
  8
0
100
AcDbBlockBegin
  2
SW_CENTERMARKSYMBOL_0
 70
     0
 10
0.0
 20
0.0
 30
0.0
  3
SW_CENTERMARKSYMBOL_0
  1

  0
LINE
  5
9A
330
97
100
AcDbEntity
  8
FORMAT
 62
     0
100
AcDbLine
 10
0.0
 20
0.0
 30
0.0
 11
0.0
 21
2.5
 31
0.0
  0
LINE
  5
9B
330
97
100
AcDbEntity
  8
FORMAT
 62
     0
100
AcDbLine
 10
0.0
 20
0.0
 30
0.0
 11
-2.5
 21
0.0
 31
0.0
  0
LINE
  5
9C
330
97
100
AcDbEntity
  8
FORMAT
 62
     0
100
AcDbLine
 10
0.0
 20
0.0
 30
0.0
 11
0.0
 21
-2.5
 31
0.0
  0
LINE
  5
9D
330
97
100
AcDbEntity
  8
FORMAT
 62
     0
100
AcDbLine
 10
0.0
 20
0.0
 30
0.0
 11
2.5
 21
0.0
 31
0.0
  0
LINE
  5
9E
330
97
100
AcDbEntity
  8
FORMAT
 62
     0
100
AcDbLine
 10
0.0
 20
5.0
 30
0.0
 11
0.0
 21
127.5
 31
0.0
  0
LINE
  5
9F
330
97
100
AcDbEntity
  8
FORMAT
 62
     0
100
AcDbLine
 10
-5.0
 20
0.0
 30
0.0
 11
-127.5
 21
0.0
 31
0.0
  0
LINE
  5
A0
330
97
100
AcDbEntity
  8
FORMAT
 62
     0
100
AcDbLine
 10
0.0
 20
-5.0
 30
0.0
 11
0.0
 21
-127.5
 31
0.0
  0
LINE
  5
A1
330
97
100
AcDbEntity
  8
FORMAT
 62
     0
100
AcDbLine
 10
5.0
 20
0.0
 30
0.0
 11
127.5
 21
0.0
 31
0.0
  0
ENDBLK
  5
99
330
97
100
AcDbEntity
  8
0
100
AcDbBlockEnd
  0
BLOCK
  5
AD
330
AC
100
AcDbEntity
  8
0
100
AcDbBlockBegin
  2
SW_CENTERMARKSYMBOL_1
 70
     0
 10
0.0
 20
0.0
 30
0.0
  3
SW_CENTERMARKSYMBOL_1
  1

  0
LINE
  5
AF
330
AC
100
AcDbEntity
  8
FORMAT
 62
     0
100
AcDbLine
 10
0.0
 20
0.0
 30
0.0
 11
0.0
 21
2.5
 31
0.0
  0
LINE
  5
B0
330
AC
100
AcDbEntity
  8
FORMAT
 62
     0
100
AcDbLine
 10
0.0
 20
0.0
 30
0.0
 11
-2.5
 21
0.0
 31
0.0
  0
LINE
  5
B1
330
AC
100
AcDbEntity
  8
FORMAT
 62
     0
100
AcDbLine
 10
0.0
 20
0.0
 30
0.0
 11
0.0
 21
-2.5
 31
0.0
  0
LINE
  5
B2
330
AC
100
AcDbEntity
  8
FORMAT
 62
     0
100
AcDbLine
 10
0.0
 20
0.0
 30
0.0
 11
2.5
 21
0.0
 31
0.0
  0
LINE
  5
B3
330
AC
100
AcDbEntity
  8
FORMAT
 62
     0
100
AcDbLine
 10
0.0
 20
5.0
 30
0.0
 11
0.0
 21
127.5
 31
0.0
  0
LINE
  5
B4
330
AC
100
AcDbEntity
  8
FORMAT
 62
     0
100
AcDbLine
 10
-5.0
 20
0.0
 30
0.0
 11
-127.5
 21
0.0
 31
0.0
  0
LINE
  5
B5
330
AC
100
AcDbEntity
  8
FORMAT
 62
     0
100
AcDbLine
 10
0.0
 20
-5.0
 30
0.0
 11
0.0
 21
-127.5
 31
0.0
  0
LINE
  5
B6
330
AC
100
AcDbEntity
  8
FORMAT
 62
     0
100
AcDbLine
 10
5.0
 20
0.0
 30
0.0
 11
127.5
 21
0.0
 31
0.0
  0
ENDBLK
  5
AE
330
AC
100
AcDbEntity
  8
0
100
AcDbBlockEnd
  0
BLOCK
  5
C0
330
BF
100
AcDbEntity
  8
0
100
AcDbBlockBegin
  2
SW_CENTERMARKSYMBOL_2
 70
     0
 10
0.0
 20
0.0
 30
0.0
  3
SW_CENTERMARKSYMBOL_2
  1

  0
LINE
  5
C2
330
BF
100
AcDbEntity
  8
FORMAT
 62
     0
100
AcDbLine
 10
0.0
 20
0.0
 30
0.0
 11
0.0
 21
2.5
 31
0.0
  0
LINE
  5
C3
330
BF
100
AcDbEntity
  8
FORMAT
 62
     0
100
AcDbLine
 10
0.0
 20
0.0
 30
0.0
 11
-2.5
 21
0.0
 31
0.0
  0
LINE
  5
C4
330
BF
100
AcDbEntity
  8
FORMAT
 62
     0
100
AcDbLine
 10
0.0
 20
0.0
 30
0.0
 11
0.0
 21
-2.5
 31
0.0
  0
LINE
  5
C5
330
BF
100
AcDbEntity
  8
FORMAT
 62
     0
100
AcDbLine
 10
0.0
 20
0.0
 30
0.0
 11
2.5
 21
0.0
 31
0.0
  0
LINE
  5
C6
330
BF
100
AcDbEntity
  8
FORMAT
 62
     0
100
AcDbLine
 10
0.0
 20
5.0
 30
0.0
 11
0.0
 21
127.5
 31
0.0
  0
LINE
  5
C7
330
BF
100
AcDbEntity
  8
FORMAT
 62
     0
100
AcDbLine
 10
-5.0
 20
0.0
 30
0.0
 11
-127.5
 21
0.0
 31
0.0
  0
LINE
  5
C8
330
BF
100
AcDbEntity
  8
FORMAT
 62
     0
100
AcDbLine
 10
0.0
 20
-5.0
 30
0.0
 11
0.0
 21
-127.5
 31
0.0
  0
LINE
  5
C9
330
BF
100
AcDbEntity
  8
FORMAT
 62
     0
100
AcDbLine
 10
5.0
 20
0.0
 30
0.0
 11
127.5
 21
0.0
 31
0.0
  0
ENDBLK
  5
C1
330
BF
100
AcDbEntity
  8
0
100
AcDbBlockEnd
  0
BLOCK
  5
D3
330
D2
100
AcDbEntity
  8
0
100
AcDbBlockBegin
  2
SW_CENTERMARKSYMBOL_3
 70
     0
 10
0.0
 20
0.0
 30
0.0
  3
SW_CENTERMARKSYMBOL_3
  1

  0
LINE
  5
D5
330
D2
100
AcDbEntity
  8
FORMAT
 62
     0
100
AcDbLine
 10
0.0
 20
0.0
 30
0.0
 11
0.0
 21
2.5
 31
0.0
  0
LINE
  5
D6
330
D2
100
AcDbEntity
  8
FORMAT
 62
     0
100
AcDbLine
 10
0.0
 20
0.0
 30
0.0
 11
-2.5
 21
0.0
 31
0.0
  0
LINE
  5
D7
330
D2
100
AcDbEntity
  8
FORMAT
 62
     0
100
AcDbLine
 10
0.0
 20
0.0
 30
0.0
 11
0.0
 21
-2.5
 31
0.0
  0
LINE
  5
D8
330
D2
100
AcDbEntity
  8
FORMAT
 62
     0
100
AcDbLine
 10
0.0
 20
0.0
 30
0.0
 11
2.5
 21
0.0
 31
0.0
  0
LINE
  5
D9
330
D2
100
AcDbEntity
  8
FORMAT
 62
     0
100
AcDbLine
 10
0.0
 20
5.0
 30
0.0
 11
0.0
 21
127.5
 31
0.0
  0
LINE
  5
DA
330
D2
100
AcDbEntity
  8
FORMAT
 62
     0
100
AcDbLine
 10
-5.0
 20
0.0
 30
0.0
 11
-127.5
 21
0.0
 31
0.0
  0
LINE
  5
DB
330
D2
100
AcDbEntity
  8
FORMAT
 62
     0
100
AcDbLine
 10
0.0
 20
-5.0
 30
0.0
 11
0.0
 21
-127.5
 31
0.0
  0
LINE
  5
DC
330
D2
100
AcDbEntity
  8
FORMAT
 62
     0
100
AcDbLine
 10
5.0
 20
0.0
 30
0.0
 11
127.5
 21
0.0
 31
0.0
  0
ENDBLK
  5
D4
330
D2
100
AcDbEntity
  8
0
100
AcDbBlockEnd
  0
ENDSEC
  0
SECTION
  2
ENTITIES
  0
LINE
  5
83
330
1F
100
AcDbEntity
  8
0
  6
Continuous
 62
     7
370
    25
100
AcDbLine
 10
-57.0091781297
 20
61.2603192759
 30
0.0
 11
-57.0091781297
 21
-105.7396807241
 31
0.0
  0
LINE
  5
84
330
1F
100
AcDbEntity
  8
0
  6
Continuous
 62
     7
370
    25
100
AcDbLine
 10
192.9908218703
 20
-105.7396807241
 30
0.0
 11
192.9908218703
 21
61.2603192759
 31
0.0
  0
ARC
  5
85
330
1F
100
AcDbEntity
  8
0
  6
Continuous
 62
     7
370
    25
100
AcDbCircle
 10
192.9908218703
 20
61.2603192759
 30
0.0
 40
250.0
100
AcDbArc
 50
90.0
 51
180.0
  0
LINE
  5
86
330
1F
100
AcDbEntity
  8
0
  6
Continuous
 62
     7
370
    25
100
AcDbLine
 10
359.9908218703
 20
311.2603192759
 30
0.0
 11
192.9908218703
 21
311.2603192759
 31
0.0
  0
LINE
  5
87
330
1F
100
AcDbEntity
  8
0
  6
Continuous
 62
     7
370
    25
100
AcDbLine
 10
192.9908218703
 20
61.2603192759
 30
0.0
 11
359.9908218703
 21
61.2603192759
 31
0.0
  0
LINE
  5
88
330
1F
100
AcDbEntity
  8
0
  6
Continuous
 62
     7
370
    25
100
AcDbLine
 10
67.9908218703
 20
-105.7396807241
 30
0.0
 11
192.9908218703
 21
-105.7396807241
 31
0.0
  0
LINE
  5
89
330
1F
100
AcDbEntity
  8
0
  6
Continuous
 62
     7
370
    25
100
AcDbLine
 10
-57.0091781297
 20
-105.7396807241
 30
0.0
 11
67.9908218703
 21
-105.7396807241
 31
0.0
  0
LINE
  5
8A
330
1F
100
AcDbEntity
  8
0
  6
Continuous
 62
     7
370
    25
100
AcDbLine
 10
359.9908218703
 20
186.2603192759
 30
0.0
 11
359.9908218703
 21
61.2603192759
 31
0.0
  0
LINE
  5
8B
330
1F
100
AcDbEntity
  8
0
  6
Continuous
 62
     7
370
    25
100
AcDbLine
 10
359.9908218703
 20
311.2603192759
 30
0.0
 11
359.9908218703
 21
186.2603192759
 31
0.0
  0
LINE
  5
8C
330
1F
100
AcDbEntity
  8
0
  6
Continuous
 62
     1
370
    25
100
AcDbLine
 10
-57.0091781297
 20
61.2603192759
 30
0.0
 11
192.9908218703
 21
61.2603192759
 31
0.0
  0
LINE
  5
8D
330
1F
100
AcDbEntity
  8
0
  6
Continuous
 62
     1
370
    25
100
AcDbLine
 10
192.9908218703
 20
311.2603192759
 30
0.0
 11
192.9908218703
 21
61.2603192759
 31
0.0
  0
LINE
  5
8E
330
1F
100
AcDbEntity
  8
0
  6
Continuous
 62
     7
370
    25
100
AcDbLine
 10
-429.3820907198
 20
186.2603192759
 30
0.0
 11
-429.3820907198
 21
61.2603192759
 31
0.0
  0
LINE
  5
8F
330
1F
100
AcDbEntity
  8
0
  6
Continuous
 62
     7
370
    25
100
AcDbLine
 10
-179.3820907198
 20
61.2603192759
 30
0.0
 11
-179.3820907198
 21
186.2603192759
 31
0.0
  0
LINE
  5
90
330
1F
100
AcDbEntity
  8
0
  6
Continuous
 62
     7
370
    25
100
AcDbLine
 10
-429.3820907198
 20
61.2603192759
 30
0.0
 11
-429.3820907198
 21
-105.7396807241
 31
0.0
  0
LINE
  5
91
330
1F
100
AcDbEntity
  8
0
  6
Continuous
 62
     7
370
    25
100
AcDbLine
 10
-179.3820907198
 20
-105.7396807241
 30
0.0
 11
-179.3820907198
 21
61.2603192759
 31
0.0
  0
CIRCLE
  5
92
330
1F
100
AcDbEntity
  8
0
  6
Continuous
 62
     7
370
    25
100
AcDbCircle
 10
-304.3820907198
 20
186.2603192759
 30
0.0
 40
125.0
  0
CIRCLE
  5
93
330
1F
100
AcDbEntity
  8
0
  6
Continuous
 62
     7
370
    25
100
AcDbCircle
 10
-304.3820907198
 20
186.2603192759
 30
0.0
 40
110.2
  0
LINE
  5
94
330
1F
100
AcDbEntity
  8
0
  6
Continuous
 62
     7
370
    25
100
AcDbLine
 10
-429.3820907198
 20
-105.7396807241
 30
0.0
 11
-179.3820907198
 21
-105.7396807241
 31
0.0
  0
LINE
  5
95
330
1F
100
AcDbEntity
  8
0
  6
Continuous
 62
     1
370
    25
100
AcDbLine
 10
-304.3820907198
 20
61.2603192759
 30
0.0
 11
-179.3820907198
 21
61.2603192759
 31
0.0
  0
LINE
  5
96
330
1F
100
AcDbEntity
  8
0
  6
Continuous
 62
     1
370
    25
100
AcDbLine
 10
-429.3820907198
 20
61.2603192759
 30
0.0
 11
-304.3820907198
 21
61.2603192759
 31
0.0
  0
INSERT
  5
A2
330
1F
100
AcDbEntity
  8
FORMAT
 62
     7
100
AcDbBlockReference
  2
SW_CENTERMARKSYMBOL_0
 10
-304.3820907198
 20
186.2603192759
 30
0.0
  0
LINE
  5
A3
330
1F
100
AcDbEntity
  8
0
  6
Continuous
 62
     7
370
    25
100
AcDbLine
 10
359.9908218703
 20
654.2518828029
 30
0.0
 11
192.9908218703
 21
654.2518828029
 31
0.0
  0
LINE
  5
A4
330
1F
100
AcDbEntity
  8
0
  6
Continuous
 62
     7
370
    25
100
AcDbLine
 10
192.9908218703
 20
404.2518828029
 30
0.0
 11
359.9908218703
 21
404.2518828029
 31
0.0
  0
LINE
  5
A5
330
1F
100
AcDbEntity
  8
0
  6
Continuous
 62
     7
370
    25
100
AcDbLine
 10
192.9908218703
 20
654.2518828029
 30
0.0
 11
67.9908218703
 21
654.2518828029
 31
0.0
  0
LINE
  5
A6
330
1F
100
AcDbEntity
  8
0
  6
Continuous
 62
     7
370
    25
100
AcDbLine
 10
67.9908218703
 20
404.2518828029
 30
0.0
 11
192.9908218703
 21
404.2518828029
 31
0.0
  0
CIRCLE
  5
A7
330
1F
100
AcDbEntity
  8
0
  6
Continuous
 62
     7
370
    25
100
AcDbCircle
 10
67.9908218703
 20
529.2518828029
 30
0.0
 40
110.2
  0
CIRCLE
  5
A8
330
1F
100
AcDbEntity
  8
0
  6
Continuous
 62
     7
370
    25
100
AcDbCircle
 10
67.9908218703
 20
529.2518828029
 30
0.0
 40
125.0
  0
LINE
  5
A9
330
1F
100
AcDbEntity
  8
0
  6
Continuous
 62
     7
370
    25
100
AcDbLine
 10
359.9908218703
 20
654.2518828029
 30
0.0
 11
359.9908218703
 21
404.2518828029
 31
0.0
  0
LINE
  5
AA
330
1F
100
AcDbEntity
  8
0
  6
Continuous
 62
     1
370
    25
100
AcDbLine
 10
192.9908218703
 20
529.2518828029
 30
0.0
 11
192.9908218703
 21
404.2518828029
 31
0.0
  0
LINE
  5
AB
330
1F
100
AcDbEntity
  8
0
  6
Continuous
 62
     1
370
    25
100
AcDbLine
 10
192.9908218703
 20
654.2518828029
 30
0.0
 11
192.9908218703
 21
529.2518828029
 31
0.0
  0
INSERT
  5
B7
330
1F
100
AcDbEntity
  8
FORMAT
 62
     7
100
AcDbBlockReference
  2
SW_CENTERMARKSYMBOL_1
 10
67.9908218703
 20
529.2518828029
 30
0.0
  0
LINE
  5
B8
330
1F
100
AcDbEntity
  8
0
  6
Continuous
 62
     7
370
    25
100
AcDbLine
 10
490.0472092326
 20
61.2603192759
 30
0.0
 11
490.0472092326
 21
-105.7396807241
 31
0.0
  0
LINE
  5
B9
330
1F
100
AcDbEntity
  8
0
  6
Continuous
 62
     7
370
    25
100
AcDbLine
 10
740.0472092326
 20
-105.7396807241
 30
0.0
 11
740.0472092326
 21
61.2603192759
 31
0.0
  0
LINE
  5
BA
330
1F
100
AcDbEntity
  8
0
  6
Continuous
 62
     7
370
    25
100
AcDbLine
 10
740.0472092326
 20
61.2603192759
 30
0.0
 11
740.0472092326
 21
186.2603192759
 31
0.0
  0
LINE
  5
BB
330
1F
100
AcDbEntity
  8
0
  6
Continuous
 62
     7
370
    25
100
AcDbLine
 10
490.0472092326
 20
186.2603192759
 30
0.0
 11
490.0472092326
 21
61.2603192759
 31
0.0
  0
LINE
  5
BC
330
1F
100
AcDbEntity
  8
0
  6
Continuous
 62
     7
370
    25
100
AcDbLine
 10
490.0472092326
 20
-105.7396807241
 30
0.0
 11
740.0472092326
 21
-105.7396807241
 31
0.0
  0
ARC
  5
BD
330
1F
100
AcDbEntity
  8
0
  6
Continuous
 62
     7
370
    25
100
AcDbCircle
 10
615.0472092326
 20
186.2603192759
 30
0.0
 40
125.0000000000001
100
AcDbArc
 50
0.0
 51
180.0
  0
LINE
  5
BE
330
1F
100
AcDbEntity
  8
0
  6
Continuous
 62
     1
370
    25
100
AcDbLine
 10
490.0472092326
 20
61.2603192759
 30
0.0
 11
740.0472092326
 21
61.2603192759
 31
0.0
  0
INSERT
  5
CA
330
1F
100
AcDbEntity
  8
FORMAT
 62
     7
100
AcDbBlockReference
  2
SW_CENTERMARKSYMBOL_2
 10
615.0472092326
 20
186.2603192759
 30
0.0
  0
LINE
  5
CB
330
1F
100
AcDbEntity
  8
0
  6
Continuous
 62
     7
370
    25
100
AcDbLine
 10
67.9908218703
 20
-588.9563116433
 30
0.0
 11
192.9908218703
 21
-588.9563116433
 31
0.0
  0
LINE
  5
CC
330
1F
100
AcDbEntity
  8
0
  6
Continuous
 62
     7
370
    25
100
AcDbLine
 10
192.9908218703
 20
-338.9563116433
 30
0.0
 11
67.9908218703
 21
-338.9563116433
 31
0.0
  0
LINE
  5
CD
330
1F
100
AcDbEntity
  8
0
  6
Continuous
 62
     7
370
    25
100
AcDbLine
 10
359.9908218703
 20
-338.9563116433
 30
0.0
 11
192.9908218703
 21
-338.9563116433
 31
0.0
  0
LINE
  5
CE
330
1F
100
AcDbEntity
  8
0
  6
Continuous
 62
     7
370
    25
100
AcDbLine
 10
192.9908218703
 20
-588.9563116433
 30
0.0
 11
359.9908218703
 21
-588.9563116433
 31
0.0
  0
ARC
  5
CF
330
1F
100
AcDbEntity
  8
0
  6
Continuous
 62
     7
370
    25
100
AcDbCircle
 10
67.9908218703
 20
-463.9563116433
 30
0.0
 40
125.0000000000001
100
AcDbArc
 50
90.0
 51
270.0
  0
LINE
  5
D0
330
1F
100
AcDbEntity
  8
0
  6
Continuous
 62
     7
370
    25
100
AcDbLine
 10
359.9908218703
 20
-338.9563116433
 30
0.0
 11
359.9908218703
 21
-588.9563116433
 31
0.0
  0
LINE
  5
D1
330
1F
100
AcDbEntity
  8
0
  6
Continuous
 62
     1
370
    25
100
AcDbLine
 10
192.9908218703
 20
-338.9563116433
 30
0.0
 11
192.9908218703
 21
-588.9563116433
 31
0.0
  0
INSERT
  5
DD
330
1F
100
AcDbEntity
  8
FORMAT
 62
     7
100
AcDbBlockReference
  2
SW_CENTERMARKSYMBOL_3
 10
67.9908218703
 20
-463.9563116433
 30
0.0
  0
LINE
  5
DE
330
1F
100
AcDbEntity
  8
0
  6
Continuous
 62
     7
370
    25
100
AcDbLine
 10
702.4592572232
 20
-170.7722872268
 30
0.0
 11
584.3724247651
 21
-238.942364564
 31
0.0
  0
LINE
  5
DF
330
1F
100
AcDbEntity
  8
0
  6
Continuous
 62
     7
370
    25
100
AcDbLine
 10
709.3622663446
 20
-455.4545801592
 30
0.0
 11
827.4490988027
 21
-387.284502822
 31
0.0
  0
LINE
  5
E0
330
1F
100
AcDbEntity
  8
0
  6
Continuous
 62
     7
370
    25
100
AcDbLine
 10
433.4789979065
 20
-500.2915808362
 30
0.0
 11
433.4789979065
 21
-636.6538964211
 31
0.0
  0
LINE
  5
E1
330
1F
100
AcDbEntity
  8
0
  6
Continuous
 62
     7
370
    25
100
AcDbLine
 10
683.4789979065
 20
-636.6538964211
 30
0.0
 11
683.4789979065
 21
-500.2915808362
 31
0.0
  0
SPLINE
  5
E2
330
1F
100
AcDbEntity
  8
0
  6
Continuous
 62
     7
370
    25
100
AcDbSpline
210
0.0
220
0.0
230
1.0
 70
     8
 71
     3
 72
    43
 73
    39
 74
     0
 42
0.00000001
 43
0.00000001
 40
0.0
 40
0.0
 40
0.0
 40
0.0
 40
0.0181914767114075
 40
0.0461723102571819
 40
0.0742121238533225
 40
0.102374741920266
 40
0.1306211185591587
 40
0.1589150973476105
 40
0.1872150092856675
 40
0.2154954876385566
 40
0.2437374294412983
 40
0.2719277758550161
 40
0.3000591214758301
 40
0.3281290850965044
 40
0.3561395731019611
 40
0.3840960311367833
 40
0.4120067438715934
 40
0.4398822126941079
 40
0.4677346192355476
 40
0.4955773682421211
 40
0.5234246946593676
 40
0.5512896419023875
 40
0.5791838501602873
 40
0.6071221398734721
 40
0.6351189181246107
 40
0.663187792606598
 40
0.6913411195590918
 40
0.7195894629030457
 40
0.7479409471610373
 40
0.7764004967072876
 40
0.8049689714261122
 40
0.8336422364183896
 40
0.8624102419843557
 40
0.8912562370086559
 40
0.9201562848052233
 40
0.9490697165242035
 40
0.977954849439649
 40
1.0
 40
1.0
 40
1.0
 40
1.0
 10
584.3724247650508
 20
-238.9423645640037
 30
0.0
 10
582.7791446333426
 20
-239.8766091443499
 30
0.0
 10
578.7351945057701
 20
-242.2478421840942
 30
0.0
 10
572.3486594063642
 20
-246.2960185346444
 30
0.0
 10
565.228954020625
 20
-251.1312089382344
 30
0.0
 10
558.2246758954599
 20
-256.238111154605
 30
0.0
 10
551.3387801361117
 20
-261.6050127714253
 30
0.0
 10
544.5857062796433
 20
-267.2195935450312
 30
0.0
 10
537.9774775234057
 20
-273.0673055228262
 30
0.0
 10
531.5246278357922
 20
-279.1341577481141
 30
0.0
 10
525.2352261941758
 20
-285.4072313656191
 30
0.0
 10
519.1159389338434
 20
-291.8743753431632
 30
0.0
 10
513.1722272719452
 20
-298.5242829385128
 30
0.0
 10
507.4085898844355
 20
-305.3465544770913
 30
0.0
 10
501.8288035453004
 20
-312.3316813610746
 30
0.0
 10
496.4361497325264
 20
-319.4709925716592
 30
0.0
 10
491.2336136847692
 20
-326.7565767643287
 30
0.0
 10
486.2240527912411
 20
-334.181194618038
 30
0.0
 10
481.4103353189591
 20
-341.7381894350942
 30
0.0
 10
476.7954534374882
 20
-349.42140025093
 30
0.0
 10
472.3827039090913
 20
-357.2249220766033
 30
0.0
 10
468.1758203017367
 20
-365.1428644779583
 30
0.0
 10
464.178831339229
 20
-373.169571109168
 30
0.0
 10
460.3960421184764
 20
-381.2997139659428
 30
0.0
 10
456.8320463167042
 20
-389.5283738971596
 30
0.0
 10
453.4919394784068
 20
-397.8506184506505
 30
0.0
 10
450.3813624595838
 20
-406.2613638561049
 30
0.0
 10
447.5065358556299
 20
-414.755206823411
 30
0.0
 10
444.8742781015415
 20
-423.3262209649678
 30
0.0
 10
442.4920050380404
 20
-431.9677150287108
 30
0.0
 10
440.367675940201
 20
-440.6719584169962
 30
0.0
 10
438.5097614257024
 20
-449.4298775562491
 30
0.0
 10
436.9268860200789
 20
-458.2307778506967
 30
0.0
 10
435.6283849632699
 20
-467.0620120117177
 30
0.0
 10
434.6211978059401
 20
-475.9081061561726
 30
0.0
 10
433.9201917323535
 20
-484.7502783666089
 30
0.0
 10
433.539210311369
 20
-492.8814826663954
 30
0.0
 10
433.4971874732739
 20
-498.0530641082552
 30
0.0
 10
433.4789979064866
 20
-500.291580836227
 30
0.0
  0
SPLINE
  5
E3
330
1F
100
AcDbEntity
  8
0
  6
Continuous
 62
     7
370
    25
100
AcDbSpline
210
0.0
220
0.0
230
1.0
 70
     8
 71
     3
 72
    38
 73
    34
 74
     0
 42
0.00000001
 43
0.00000001
 40
0.0
 40
0.0
 40
0.0
 40
0.0
 40
0.0060499635646318
 40
0.042143633053884
 40
0.0771480718834587
 40
0.1113067900904599
 40
0.1448444784021292
 40
0.1779634029213044
 40
0.2108403628793228
 40
0.2436242513914067
 40
0.2764343650008312
 40
0.3093490132972617
 40
0.3424159052513092
 40
0.3756748907111429
 40
0.4091393689103846
 40
0.4427999312610583
 40
0.4766287624309415
 40
0.510584753485418
 40
0.5446191369880619
 40
0.578667199068865
 40
0.6126810913351559
 40
0.6466290144337729
 40
0.6804977386638448
 40
0.7142978959469851
 40
0.7480684701682764
 40
0.7818802052819586
 40
0.8158240276589207
 40
0.8500078348365203
 40
0.88459098839558
 40
0.9197640534802066
 40
0.9557455250340784
 40
0.9927778844750266
 40
1.0
 40
1.0
 40
1.0
 40
1.0
 10
683.4779538955131
 20
-500.3931004063131
 30
0.0
 10
683.4778561244523
 20
-500.3997927434253
 30
0.0
 10
683.4771750579188
 20
-500.446411106745
 30
0.0
 10
683.4843443193718
 20
-500.2491087732185
 30
0.0
 10
683.5276108694176
 20
-499.7821801880795
 30
0.0
 10
683.6254354046707
 20
-499.0101674031262
 30
0.0
 10
683.7943623460121
 20
-497.9801208686562
 30
0.0
 10
684.0498365489154
 20
-496.698408543391
 30
0.0
 10
684.405232368403
 20
-495.1836322294542
 30
0.0
 10
684.8719429277085
 20
-493.4534510024798
 30
0.0
 10
685.4589918718121
 20
-491.5287991210845
 30
0.0
 10
686.1726359799347
 20
-489.4333729335058
 30
0.0
 10
687.0160893554737
 20
-487.1936030477946
 30
0.0
 10
687.9893722996385
 20
-484.8381245225839
 30
0.0
 10
689.08917198797
 20
-482.3974133299537
 30
0.0
 10
690.3084891289512
 20
-479.9038270206876
 30
0.0
 10
691.6365548014528
 20
-477.3910132502858
 30
0.0
 10
693.0588841895994
 20
-474.8931681877953
 30
0.0
 10
694.557268321168
 20
-472.4445349763207
 30
0.0
 10
696.1102648602123
 20
-470.0781626025131
 30
0.0
 10
697.6938014059434
 20
-467.8248312576166
 30
0.0
 10
699.2820685052517
 20
-465.7119000023925
 30
0.0
 10
700.8480289267095
 20
-463.7629229122302
 30
0.0
 10
702.3640228991476
 20
-461.9972507689414
 30
0.0
 10
703.8023496856572
 20
-460.4297681354554
 30
0.0
 10
705.1356344485464
 20
-459.0709793193757
 30
0.0
 10
706.3368349530433
 20
-457.9273113644078
 30
0.0
 10
707.3807169879708
 20
-457.0003723318893
 30
0.0
 10
708.2410498944971
 20
-456.2890376917534
 30
0.0
 10
708.9023465308649
 20
-455.782815293491
 30
0.0
 10
709.3139832496072
 20
-455.4898720424379
 30
0.0
 10
709.4951355574444
 20
-455.3757641917596
 30
0.0
 10
709.4539609551676
 20
-455.4003864821366
 30
0.0
 10
709.4472414599173
 20
-455.4044047204217
 30
0.0
  0
LWPOLYLINE
  5
E4
330
1F
100
AcDbEntity
  8
0
  6
Continuous
 62
     7
370
    25
100
AcDbPolyline
 90
      119
 70
   128
 43
0.0
 10
676.5658303646
 20
-228.0028880355
 10
676.6911035519
 20
-233.5074664391
 10
677.0665680132
 20
-239.1410788605
 10
677.6911594537
 20
-244.8877562132
 10
678.5631074011
 20
-250.7312089159
 10
679.6799402243
 20
-256.654873067
 10
681.0384921392
 20
-262.6419573968
 10
682.6349121828
 20
-268.6754908645
 10
684.4646751292
 20
-274.7383707638
 10
686.5225943164
 20
-280.8134112029
 10
688.8028363489
 20
-286.8833918198
 10
691.2989376329
 20
-292.9311065948
 10
694.0038226982
 20
-298.9394126235
 10
696.9098242541
 20
-304.8912787094
 10
700.0087049235
 20
-310.7698336417
 10
703.2916805925
 20
-316.5584140176
 10
706.7494453098
 20
-322.2406114771
 10
710.3721976657
 20
-327.8003192143
 10
714.1496685751
 20
-333.2217776334
 10
718.0711503861
 20
-338.4896190216
 10
722.1255272327
 20
-343.5889111102
 10
726.3013065431
 20
-348.5051994016
 10
730.5866516172
 20
-353.2245481426
 10
734.9694151787
 20
-357.7335798265
 10
739.4371738082
 20
-362.0195131129
 10
743.9772631585
 20
-366.0701990585
 10
748.576813853
 20
-369.8741555538
 10
753.2227879656
 20
-373.4205998707
 10
757.9020159778
 20
-376.6994792277
 10
762.6012341095
 20
-379.7014992848
 10
767.3071219164
 20
-382.4181504902
 10
772.0063400481
 20
-384.8417322007
 10
776.6855680603
 20
-386.9653745108
 10
781.3315421729
 20
-388.7830577255
 10
785.9310928674
 20
-390.2896294244
 10
790.4711822177
 20
-391.4808190662
 10
794.9389408472
 20
-392.3532500945
 10
799.3217044088
 20
-392.9044495088
 10
803.6070494828
 20
-393.1328548744
 10
807.7828287932
 20
-393.0378187515
 10
811.8372056398
 20
-392.6196105303
 10
815.7586874509
 20
-391.8794156675
 10
819.5361583602
 20
-390.8193323258
 10
823.1589107161
 20
-389.4423654266
 10
826.6166754335
 20
-387.7524181323
 10
829.8996511024
 20
-385.7542807819
 10
832.9985317719
 20
-383.453617313
 10
835.9045333278
 20
-380.8569492061
 10
838.609418393
 20
-377.9716369991
 10
841.105519677
 20
-374.8058594228
 10
843.3857617095
 20
-371.3685902178
 10
845.4436808967
 20
-367.6695726971
 10
847.2734438431
 20
-363.7192921277
 10
848.8698638867
 20
-359.5289460092
 10
850.2284158017
 20
-355.1104123327
 10
851.3452486248
 20
-350.4762159122
 10
852.2171965723
 20
-345.6394928808
 10
852.8417880128
 20
-340.6139534554
 10
853.217252474
 20
-335.4138430737
 10
853.3425256613
 20
-330.0539020133
 10
853.217252474
 20
-324.5493236097
 10
852.8417880128
 20
-318.9157111883
 10
852.2171965723
 20
-313.1690338356
 10
851.3452486248
 20
-307.3255811329
 10
850.2284158017
 20
-301.4019169818
 10
848.8698638867
 20
-295.414832652
 10
847.2734438431
 20
-289.3812991843
 10
845.4436808967
 20
-283.318419285
 10
843.3857617095
 20
-277.2433788458
 10
841.105519677
 20
-271.173398229
 10
838.609418393
 20
-265.1256834539
 10
835.9045333278
 20
-259.1173774253
 10
832.9985317719
 20
-253.1655113394
 10
829.8996511024
 20
-247.2869564071
 10
826.6166754335
 20
-241.4983760312
 10
823.1589107161
 20
-235.8161785717
 10
819.5361583602
 20
-230.2564708345
 10
815.7586874509
 20
-224.8350124154
 10
811.8372056398
 20
-219.5671710272
 10
807.7828287932
 20
-214.4678789386
 10
803.6070494828
 20
-209.5515906472
 10
799.3217044088
 20
-204.8322419062
 10
794.9389408472
 20
-200.3232102223
 10
790.4711822177
 20
-196.0372769358
 10
785.9310928674
 20
-191.9865909903
 10
781.3315421729
 20
-188.182634495
 10
776.6855680603
 20
-184.6361901781
 10
772.0063400481
 20
-181.3573108211
 10
767.3071219164
 20
-178.355290764
 10
762.6012341095
 20
-175.6386395586
 10
757.9020159778
 20
-173.2150578481
 10
753.2227879656
 20
-171.091415538
 10
748.576813853
 20
-169.2737323233
 10
743.9772631585
 20
-167.7671606244
 10
739.4371738082
 20
-166.5759709826
 10
734.9694151787
 20
-165.7035399543
 10
730.5866516172
 20
-165.15234054
 10
726.3013065431
 20
-164.9239351744
 10
722.1255272327
 20
-165.0189712973
 10
718.0711503861
 20
-165.4371795185
 10
714.149668575
 20
-166.1773743813
 10
710.3721976657
 20
-167.237457723
 10
706.7494453098
 20
-168.6144246222
 10
703.2916805925
 20
-170.3043719165
 10
700.0087049235
 20
-172.3025092668
 10
696.9098242541
 20
-174.6031727357
 10
694.0038226982
 20
-177.1998408427
 10
691.2989376329
 20
-180.0851530497
 10
688.8028363489
 20
-183.250930626
 10
686.5225943164
 20
-186.688199831
 10
684.4646751292
 20
-190.3872173517
 10
682.6349121828
 20
-194.3374979211
 10
681.0384921392
 20
-198.5278440396
 10
679.6799402243
 20
-202.9463777161
 10
678.5631074011
 20
-207.5805741366
 10
677.6911594537
 20
-212.417297168
 10
677.0665680132
 20
-217.4428365934
 10
676.6911035519
 20
-222.6429469751
 10
676.5658303646
 20
-228.0028880355
  0
LWPOLYLINE
  5
E5
330
1F
100
AcDbEntity
  8
0
  6
Continuous
 62
     7
370
    25
100
AcDbPolyline
 90
      112
 70
   128
 43
0.0
 10
687.0310107262
 20
-234.044308063
 10
687.1558164246
 20
-229.0255756665
 10
687.5298337294
 20
-224.167017375
 10
688.1518645504
 20
-219.4841966155
 10
689.0199163355
 20
-214.9921138746
 10
690.1312084531
 20
-210.7051586475
 10
691.4821810994
 20
-206.6370633444
 10
693.0685067018
 20
-202.8008593008
 10
694.8851037812
 20
-199.2088350348
 10
696.9261532294
 20
-195.8724968832
 10
699.1851169498
 20
-192.8025321427
 10
701.6547588005
 20
-190.0087748359
 10
704.3271677741
 20
-187.5001742099
 10
707.1937833391
 20
-185.2847660686
 10
710.2454228616
 20
-183.3696470322
 10
713.4723110201
 20
-181.7609518044
 10
716.8641111191
 20
-180.463833521
 10
720.4099582004
 20
-179.4824472428
 10
724.0984938467
 20
-178.819936646
 10
727.9179025663
 20
-178.4784239518
 10
731.8559496417
 20
-178.4590031282
 10
735.9000203209
 20
-178.7617363861
 10
740.0371602263
 20
-179.3856539795
 10
744.2541168515
 20
-180.3287573123
 10
748.5373820132
 20
-181.5880253402
 10
752.8732351218
 20
-183.159424248
 10
757.2477871325
 20
-185.0379203713
 10
761.6470250365
 20
-187.2174963208
 10
766.0568567484
 20
-189.6911702575
 10
770.463156248
 20
-192.4510182581
 10
774.8518088295
 20
-195.4881996974
 10
779.2087563156
 20
-198.7929855677
 10
783.5200420899
 20
-202.3547896434
 10
787.7718558045
 20
-206.1622023924
 10
791.9505776182
 20
-210.2030275237
 10
796.0428218251
 20
-214.4643210563
 10
800.0354797335
 20
-218.9324327822
 10
803.9157616563
 20
-223.5930499927
 10
807.6712378808
 20
-228.4312433256
 10
811.2898784844
 20
-233.4315145893
 10
814.7600918703
 20
-238.5778464073
 10
818.0707618988
 20
-243.8537535274
 10
821.2112834959
 20
-249.2423356285
 10
824.1715966239
 20
-254.7263314576
 10
826.9422185076
 20
-260.2881741227
 10
829.5142740097
 20
-265.9100473651
 10
831.879524061
 20
-271.57394263
 10
834.0303920526
 20
-277.2617167532
 10
835.9599881059
 20
-282.9551500794
 10
837.662131143
 20
-288.6360048255
 10
839.1313686865
 20
-294.2860835009
 10
840.3629943258
 20
-299.8872872002
 10
841.3530627925
 20
-305.4216735795
 10
842.0984025988
 20
-310.8715143307
 10
842.5966261968
 20
-316.2193519708
 10
842.8461376259
 20
-321.4480557637
 10
842.8461376259
 20
-326.5408765947
 10
842.5966261968
 20
-331.4815006235
 10
842.0984025988
 20
-336.2541015416
 10
841.3530627925
 20
-340.8433912697
 10
840.3629943258
 20
-345.2346689291
 10
839.1313686865
 20
-349.4138679337
 10
837.662131143
 20
-353.367601049
 10
835.9599881059
 20
-357.083203276
 10
834.0303920526
 20
-360.5487724206
 10
831.879524061
 20
-363.7532072201
 10
829.5142740097
 20
-366.6862429036
 10
826.9422185076
 20
-369.3384840737
 10
824.1715966239
 20
-371.7014348023
 10
821.2112834959
 20
-373.7675258459
 10
818.0707618988
 20
-375.5301388919
 10
814.7600918703
 20
-376.9836277595
 10
811.2898784844
 20
-378.1233364855
 10
807.6712378808
 20
-378.9456142394
 10
803.9157616563
 20
-379.4478270176
 10
800.0354797335
 20
-379.6283660811
 10
796.0428218251
 20
-379.4866531089
 10
791.9505776182
 20
-379.0231420504
 10
787.7718558045
 20
-378.2393176712
 10
783.5200420899
 20
-377.1376907971
 10
779.2087563156
 20
-375.7217902712
 10
774.8518088295
 20
-373.9961516497
 10
770.463156248
 20
-371.9663026732
 10
766.0568567484
 20
-369.63874556
 10
761.6470250365
 20
-367.0209361774
 10
757.2477871325
 20
-364.1212601578
 10
752.8732351218
 20
-360.9490060378
 10
748.5373820132
 20
-357.5143355037
 10
744.2541168515
 20
-353.8282508407
 10
740.0371602263
 20
-349.9025596892
 10
735.9000203209
 20
-345.7498372215
 10
731.8559496417
 20
-341.3833858595
 10
727.9179025663
 20
-336.8171926634
 10
724.0984938467
 20
-332.0658845266
 10
720.4099582004
 20
-327.1446813215
 10
716.8641111191
 20
-322.0693471454
 10
713.4723110201
 20
-316.8561398239
 10
710.2454228616
 20
-311.5217588317
 10
707.1937833391
 20
-306.0832917993
 10
704.3271677741
 20
-300.5581597762
 10
701.6547588005
 20
-294.9640614258
 10
699.1851169498
 20
-289.3189163318
 10
696.9261532294
 20
-283.6408075956
 10
694.8851037812
 20
-277.9479239115
 10
693.0685067018
 20
-272.2585013021
 10
691.4821810994
 20
-266.5907647032
 10
690.1312084531
 20
-260.9628695839
 10
689.0199163355
 20
-255.3928437889
 10
688.1518645504
 20
-249.89852979
 10
687.5298337294
 20
-244.4975275314
 10
687.1558164246
 20
-239.2071380516
 10
687.0310107262
 20
-234.044308063
  0
LWPOLYLINE
  5
E6
330
1F
100
AcDbEntity
  8
0
  6
Continuous
 62
     7
370
    25
100
AcDbPolyline
 90
      119
 70
   128
 43
0.0
 10
470.0906502582
 20
-585.6283894322
 10
474.920143538
 20
-582.9850196495
 10
479.9864934688
 20
-580.4937801289
 10
485.2753389315
 20
-578.1617325596
 10
490.7716881188
 20
-575.9954873837
 10
496.4599610319
 20
-574.0011850585
 10
502.3240336431
 20
-572.1844786506
 10
508.3472836016
 20
-570.5505178119
 10
514.512637351
 20
-569.1039341817
 10
520.8026185261
 20
-567.8488282585
 10
527.1993974919
 20
-566.7887577764
 10
533.6848418836
 20
-565.9267276205
 10
540.2405680043
 20
-565.2651813087
 10
546.8479929361
 20
-564.8059940661
 10
553.4883872152
 20
-564.5504675088
 10
560.1429279225
 20
-564.4993259544
 10
566.7927520393
 20
-564.6527143694
 10
573.4190099168
 20
-565.0101979576
 10
580.0029187071
 20
-565.570763393
 10
586.5258156054
 20
-566.3328216918
 10
592.9692107518
 20
-567.2942127171
 10
599.3148396425
 20
-568.4522113015
 10
605.5447149032
 20
-569.8035349723
 10
611.6411772756
 20
-571.3443532556
 10
617.5869456747
 20
-573.0702985347
 10
623.3651661739
 20
-574.9764784302
 10
628.9594597795
 20
-577.057489668
 10
634.3539688585
 20
-579.3074333956
 10
639.5334020888
 20
-581.7199319032
 10
644.4830778042
 20
-584.2881467017
 10
649.188965611
 20
-587.004797907
 10
653.6377261591
 20
-589.8621848763
 10
657.8167489532
 20
-592.8522080357
 10
661.7141880994
 20
-595.9663918397
 10
665.3189958828
 20
-599.1959087961
 10
668.6209540841
 20
-602.531604488
 10
671.6107029441
 20
-605.9640235237
 10
674.2797676949
 20
-609.4834363384
 10
676.6205825823
 20
-613.0798667743
 10
678.6265123123
 20
-616.7431203584
 10
680.2918708591
 20
-620.4628132004
 10
681.6119375829
 20
-624.228401427
 10
682.5829706114
 20
-628.0292110692
 10
683.2022174457
 20
-631.854468319
 10
683.4679227635
 20
-635.6933300692
 10
683.3793333941
 20
-639.534914649
 10
682.9367004539
 20
-643.3683326698
 10
682.1412786339
 20
-647.1827178914
 10
680.9953226437
 20
-650.9672580247
 10
679.5020808201
 20
-654.7112253794
 10
677.6657859192
 20
-658.4040072733
 10
675.4916431185
 20
-662.035136115
 10
672.9858152619
 20
-665.5943190751
 10
670.1554053907
 20
-669.071467263
 10
667.0084366093
 20
-672.4567243242
 10
663.5538293425
 20
-675.7404943799
 10
659.8013760501
 20
-678.9134692271
 10
655.7617134684
 20
-681.9666547238
 10
651.4462924601
 20
-684.891396284
 10
646.8673455548
 20
-687.6794034101
 10
642.037852275
 20
-690.3227731928
 10
636.9715023441
 20
-692.8140127134
 10
631.6826568815
 20
-695.1460602827
 10
626.1863076942
 20
-697.3123054586
 10
620.4980347811
 20
-699.3066077838
 10
614.6339621698
 20
-701.1233141916
 10
608.6107122113
 20
-702.7572750304
 10
602.445358462
 20
-704.2038586606
 10
596.1553772869
 20
-705.4589645838
 10
589.758598321
 20
-706.5190350659
 10
583.2731539294
 20
-707.3810652218
 10
576.7174278087
 20
-708.0426115336
 10
570.1100028769
 20
-708.5017987762
 10
563.4696085978
 20
-708.7573253335
 10
556.8150678905
 20
-708.8084668879
 10
550.1652437737
 20
-708.6550784729
 10
543.5389858961
 20
-708.2975948847
 10
536.9550771058
 20
-707.7370294493
 10
530.4321802075
 20
-706.9749711505
 10
523.9887850612
 20
-706.0135801252
 10
517.6431561704
 20
-704.8555815408
 10
511.4132809097
 20
-703.50425787
 10
505.3168185374
 20
-701.9634395867
 10
499.3710501383
 20
-700.2374943076
 10
493.5928296391
 20
-698.3313144121
 10
487.9985360334
 20
-696.2503031743
 10
482.6040269544
 20
-694.0003594467
 10
477.4245937242
 20
-691.5878609391
 10
472.4749180088
 20
-689.0196461406
 10
467.769030202
 20
-686.3029949353
 10
463.3202696539
 20
-683.445607966
 10
459.1412468597
 20
-680.4555848066
 10
455.2438077136
 20
-677.3414010026
 10
451.6389999302
 20
-674.1118840462
 10
448.3370417289
 20
-670.7761883543
 10
445.3472928688
 20
-667.3437693186
 10
442.6782281181
 20
-663.8243565039
 10
440.3374132307
 20
-660.227926068
 10
438.3314835007
 20
-656.5646724839
 10
436.6661249539
 20
-652.8449796418
 10
435.34605823
 20
-649.0793914153
 10
434.3750252016
 20
-645.2785817731
 10
433.7557783673
 20
-641.4533245233
 10
433.4900730495
 20
-637.6144627731
 10
433.5786624188
 20
-633.7728781932
 10
434.0212953591
 20
-629.9394601725
 10
434.8167171791
 20
-626.1250749509
 10
435.9626731693
 20
-622.3405348176
 10
437.4559149929
 20
-618.5965674629
 10
439.2922098938
 20
-614.903785569
 10
441.4663526945
 20
-611.2726567273
 10
443.9721805511
 20
-607.7134737672
 10
446.8025904223
 20
-604.2363255793
 10
449.9495592037
 20
-600.8510685181
 10
453.4041664704
 20
-597.5672984624
 10
457.1566197629
 20
-594.3943236152
 10
461.1962823445
 20
-591.3411381185
 10
465.5117033529
 20
-588.4163965583
 10
470.0906502582
 20
-585.6283894322
  0
LWPOLYLINE
  5
E7
330
1F
100
AcDbEntity
  8
0
  6
Continuous
 62
     7
370
    25
100
AcDbPolyline
 90
      112
 70
   128
 43
0.0
 10
480.5558306197
 20
-591.6698094597
 10
476.2721292963
 20
-594.2868351881
 10
472.2517613563
 20
-597.0395753863
 10
468.5076052504
 20
-599.9192121974
 10
465.0516546394
 20
-602.9165212767
 10
461.8949799748
 20
-606.0219013396
 10
459.0476930374
 20
-609.2254049175
 10
456.5189145455
 20
-612.5167702228
 10
454.3167449391
 20
-615.8854540199
 10
452.4482384312
 20
-619.3206653993
 10
450.9193804117
 20
-622.8114003432
 10
449.7350682735
 20
-626.3464769752
 10
448.8990957255
 20
-629.914571379
 10
448.4141406398
 20
-633.5042538728
 10
448.2817564738
 20
-637.1040256211
 10
448.5023672939
 20
-640.70235547
 10
449.075266417
 20
-644.287716884
 10
449.9986186746
 20
-647.8486248696
 10
451.2694662911
 20
-651.3736727651
 10
452.8837383583
 20
-654.8515687793
 10
454.8362638762
 20
-658.2711721628
 10
457.1207883169
 20
-661.621528895
 10
459.7299936599
 20
-664.8919067733
 10
462.6555218339
 20
-668.0718297914
 10
465.8880014902
 20
-671.1511116971
 10
469.4170780219
 20
-674.1198886223
 10
473.2314467329
 20
-676.9686506794
 10
477.3188890504
 20
-679.6882724247
 10
481.6663116643
 20
-682.2700420898
 10
486.2597884693
 20
-684.7056894882
 10
491.0846051745
 20
-686.9874125071
 10
496.1253064374
 20
-689.1079020995
 10
501.3657453721
 20
-691.0603656983
 10
506.7891352729
 20
-692.8385489737
 10
512.378103387
 20
-694.4367558687
 10
518.1147465644
 20
-695.8498668448
 10
523.9806886078
 20
-697.0733552815
 10
529.9571391362
 20
-698.1033019765
 10
536.0249537769
 20
-698.9364077001
 10
542.1646954902
 20
-699.5700037633
 10
548.3566968326
 20
-700.0020605672
 10
554.5811229569
 20
-700.2311941033
 10
560.8180351499
 20
-700.256670388
 10
567.0474547013
 20
-700.078407813
 10
573.2494269025
 20
-699.6969774072
 10
579.4040849666
 20
-699.1136010069
 10
585.4917136686
 20
-698.3301473429
 10
591.4928124982
 20
-697.3491260533
 10
597.3881581269
 20
-696.173679645
 10
603.1588659853
 20
-694.8075734274
 10
608.7864507563
 20
-693.2551834504
 10
614.2528855894
 20
-691.5214824872
 10
619.5406598458
 20
-689.6120241045
 10
624.6328351904
 20
-687.5329248734
 10
629.5130998505
 20
-685.2908447753
 10
634.165820867
 20
-682.8929658689
 10
638.5760941719
 20
-680.346969283
 10
642.7297923301
 20
-677.6610106124
 10
646.6136097943
 20
-674.8436937925
 10
650.2151055262
 20
-671.9040435382
 10
653.5227428492
 20
-668.8514764357
 10
656.5259264038
 20
-665.6957707777
 10
659.2150360878
 20
-662.4470352406
 10
661.581457872
 20
-659.115676504
 10
663.6176113941
 20
-655.712365914
 10
665.3169742405
 20
-652.2480053007
 10
666.6741028398
 20
-648.7336920553
 10
667.6846498998
 20
-645.1806835828
 10
668.3453783336
 20
-641.6003612403
 10
668.6541716289
 20
-638.0041938799
 10
668.6100406278
 20
-634.4037011095
 10
668.213126695
 20
-630.8104163932
 10
667.4647012656
 20
-627.235850105
 10
666.3671617718
 20
-623.6914526585
 10
664.9240239635
 20
-620.1885778272
 10
663.1399106463
 20
-616.7384463753
 10
661.0205368729
 20
-613.3521101138
 10
658.5726916364
 20
-610.0404164989
 10
655.8042161232
 20
-606.8139738834
 10
652.7239785948
 20
-603.6831175358
 10
649.3418459808
 20
-600.6578765329
 10
645.6686522715
 20
-597.7479416335
 10
641.7161638138
 20
-594.9626342366
 10
637.4970416197
 20
-592.3108765212
 10
633.0248008096
 20
-589.801162867
 10
628.3137673191
 20
-587.4415326433
 10
623.3790320087
 20
-585.239544457
 10
618.2364023233
 20
-583.2022519403
 10
612.9023516562
 20
-581.3361811551
 10
607.3939665798
 20
-579.6473096889
 10
601.728892112
 20
-578.1410475061
 10
595.9252751944
 20
-576.8222196185
 10
590.0017065614
 20
-575.6950506295
 10
583.9771611893
 20
-574.7631512011
 10
577.8709375132
 20
-574.0295064882
 10
571.7025956083
 20
-573.496466576
 10
565.4918945334
 20
-573.1657389519
 10
559.2587290363
 20
-573.0383830364
 10
553.0230658254
 20
-573.1148067887
 10
546.8048796098
 20
-573.3947654005
 10
540.6240891145
 20
-573.8773620801
 10
534.500493275
 20
-574.5610509248
 10
528.4537078146
 20
-575.443641873
 10
522.5031024103
 20
-576.5223077199
 10
516.6677386452
 20
-577.7935931736
 10
510.9663089485
 20
-579.2534259236
 10
505.4170767184
 20
-580.8971296853
 10
500.0378178188
 20
-582.7194391802
 10
494.8457636375
 20
-584.7145170016
 10
489.8575458895
 20
-586.8759723137
 10
485.0891433399
 20
-589.1968813234
 10
480.5558306197
 20
-591.6698094597
  0
LWPOLYLINE
  5
E8
330
1F
100
AcDbEntity
  8
0
  6
Continuous
 62
     1
370
    25
100
AcDbPolyline
 90
       16
 70
   128
 43
0.0
 10
646.8673455548
 20
-449.2660738473
 10
651.5715656474
 20
-451.8371014488
 10
656.262451117
 20
-454.1115194876
 10
660.9267051391
 20
-456.0828808786
 10
665.551106379
 20
-457.7455975837
 10
670.1225464689
 20
-459.0949564518
 10
674.6280671652
 20
-460.1271325786
 10
679.0548970801
 20
-460.8392001487
 10
683.390487883
 20
-461.2291407292
 10
687.6225498709
 20
-461.2958489912
 10
691.7390868043
 20
-461.0391358429
 10
695.728429912
 20
-460.4597289656
 10
699.5792709674
 20
-459.5592707509
 10
703.2806943433
 20
-458.3403136457
 10
706.822207953
 20
-456.8063129161
 10
709.3622663446
 20
-455.4545801592
  0
LWPOLYLINE
  5
E9
330
1F
100
AcDbEntity
  8
0
  6
Continuous
 62
     1
370
    25
100
AcDbPolyline
 90
       46
 70
   128
 43
0.0
 10
584.3724247651
 20
-238.942364564
 10
583.5409181183
 20
-239.4353278692
 10
580.3488587188
 20
-241.5854902724
 10
577.3453531972
 20
-244.0350241479
 10
574.5389153162
 20
-246.7769860257
 10
571.937500229
 20
-249.8036035169
 10
569.5484819293
 20
-253.1062973455
 10
567.3786323489
 20
-256.6757056669
 10
565.4341021622
 20
-260.5017106056
 10
563.7204033514
 20
-264.5734669347
 10
562.2423935819
 20
-268.8794328186
 10
561.004262433
 20
-273.4074025292
 10
560.0095195218
 20
-278.1445410444
 10
559.2609845554
 20
-283.0774204303
 10
558.7607793374
 20
-288.1920579045
 10
558.5103217537
 20
-293.4739554713
 10
558.5103217537
 20
-298.9081410182
 10
558.7607793374
 20
-304.4792107559
 10
559.2609845554
 20
-310.1713728819
 10
560.0095195218
 20
-315.9684923442
 10
561.004262433
 20
-321.8541365779
 10
562.2423935819
 20
-327.811622085
 10
563.7204033514
 20
-333.8240617255
 10
565.4341021622
 20
-339.874412586
 10
567.3786323489
 20
-345.9455242897
 10
569.5484819293
 20
-352.0201876108
 10
571.937500229
 20
-358.0811832562
 10
574.5389153163
 20
-364.1113306752
 10
577.3453531972
 20
-370.0935367598
 10
580.3488587188
 20
-376.0108442969
 10
583.5409181183
 20
-381.8464800353
 10
586.9124831566
 20
-387.5839022316
 10
590.4539967663
 20
-393.2068475393
 10
594.1554201422
 20
-398.6993771088
 10
598.0062611976
 20
-404.0459217684
 10
601.9956043053
 20
-409.2313261565
 10
606.1121412387
 20
-414.2408916807
 10
610.3442032266
 20
-419.0604181836
 10
614.6797940295
 20
-423.6762441934
 10
619.1066239444
 20
-428.0752856499
 10
623.6121446407
 20
-432.2450729922
 10
628.1835847306
 20
-436.173786505
 10
632.8079859705
 20
-439.8502898229
 10
637.4722399927
 20
-443.264161498
 10
642.1631254623
 20
-446.4057245401
 10
646.8673455548
 20
-449.2660738473
  0
LWPOLYLINE
  5
EA
330
1F
100
AcDbEntity
  8
0
  6
Continuous
 62
     1
370
    25
100
AcDbPolyline
 90
       16
 70
   128
 43
0.0
 10
646.8673455548
 20
-449.2660738473
 10
651.4462924601
 20
-452.0540809733
 10
655.7617134684
 20
-454.9788225336
 10
659.8013760501
 20
-458.0320080303
 10
663.5538293425
 20
-461.2049828774
 10
667.0084366093
 20
-464.4887529331
 10
670.1554053907
 20
-467.8740099944
 10
672.9858152619
 20
-471.3511581823
 10
675.4916431185
 20
-474.9103411424
 10
677.6657859192
 20
-478.541469984
 10
679.5020808201
 20
-482.234251878
 10
680.9953226437
 20
-485.9782192327
 10
682.1412786339
 20
-489.762759366
 10
682.9367004539
 20
-493.5771445876
 10
683.3793333941
 20
-497.4105626083
 10
683.4789979065
 20
-500.2915808362
  0
LWPOLYLINE
  5
EB
330
1F
100
AcDbEntity
  8
0
  6
Continuous
 62
     1
370
    25
100
AcDbPolyline
 90
       46
 70
   128
 43
0.0
 10
433.4789979065
 20
-500.2915808362
 10
433.4900730495
 20
-499.3310144842
 10
433.7557783673
 20
-495.492152734
 10
434.3750252016
 20
-491.6668954842
 10
435.34605823
 20
-487.8660858421
 10
436.6661249539
 20
-484.1004976155
 10
438.3314835007
 20
-480.3808047734
 10
440.3374132307
 20
-476.7175511893
 10
442.6782281181
 20
-473.1211207535
 10
445.3472928688
 20
-469.6017079387
 10
448.3370417289
 20
-466.1692889031
 10
451.6389999302
 20
-462.8335932111
 10
455.2438077136
 20
-459.6040762548
 10
459.1412468597
 20
-456.4898924508
 10
463.3202696539
 20
-453.4998692914
 10
467.769030202
 20
-450.6424823221
 10
472.4749180088
 20
-447.9258311167
 10
477.4245937242
 20
-445.3576163183
 10
482.6040269545
 20
-442.9451178107
 10
487.9985360334
 20
-440.6951740831
 10
493.5928296391
 20
-438.6141628453
 10
499.3710501383
 20
-436.7079829498
 10
505.3168185374
 20
-434.9820376707
 10
511.4132809097
 20
-433.4412193874
 10
517.6431561704
 20
-432.0898957166
 10
523.9887850612
 20
-430.9318971321
 10
530.4321802076
 20
-429.9705061069
 10
536.9550771058
 20
-429.208447808
 10
543.5389858961
 20
-428.6478823727
 10
550.1652437737
 20
-428.2903987845
 10
556.8150678905
 20
-428.1370103695
 10
563.4696085978
 20
-428.1881519238
 10
570.1100028769
 20
-428.4436784812
 10
576.7174278087
 20
-428.9028657238
 10
583.2731539294
 20
-429.5644120356
 10
589.758598321
 20
-430.4264421915
 10
596.1553772869
 20
-431.4865126736
 10
602.445358462
 20
-432.7416185967
 10
608.6107122113
 20
-434.1882022269
 10
614.6339621698
 20
-435.8221630657
 10
620.4980347811
 20
-437.6388694736
 10
626.1863076942
 20
-439.6331717987
 10
631.6826568815
 20
-441.7994169747
 10
636.9715023441
 20
-444.131464544
 10
642.037852275
 20
-446.6227040646
 10
646.8673455548
 20
-449.2660738473
  0
ENDSEC
  0
SECTION
  2
OBJECTS
  0
DICTIONARY
  5
C
330
0
100
AcDbDictionary
281
     1
  3
ACAD_GROUP
350
D
  3
ACAD_LAYOUT
350
1A
  3
ACAD_MLINESTYLE
350
17
  3
ACAD_PLOTSETTINGS
350
19
  3
ACAD_PLOTSTYLENAME
350
E
  3
ACAD_SCALELIST
350
47
  3
DWGPROPS
350
EC
  0
DICTIONARY
  5
D
102
{ACAD_REACTORS
330
C
102
}
330
C
100
AcDbDictionary
281
     1
  0
DICTIONARY
  5
1A
102
{ACAD_REACTORS
330
C
102
}
330
C
100
AcDbDictionary
281
     1
  3
Layout1
350
1E
  3
Layout2
350
26
  3
Model
350
22
  0
DICTIONARY
  5
17
102
{ACAD_REACTORS
330
C
102
}
330
C
100
AcDbDictionary
281
     1
  3
Standard
350
18
  0
DICTIONARY
  5
19
102
{ACAD_REACTORS
330
C
102
}
330
C
100
AcDbDictionary
281
     1
  0
ACDBDICTIONARYWDFLT
  5
E
102
{ACAD_REACTORS
330
C
102
}
330
C
100
AcDbDictionary
281
     1
  3
Normal
350
F
100
AcDbDictionaryWithDefault
340
F
  0
DICTIONARY
  5
47
102
{ACAD_REACTORS
330
C
102
}
330
C
100
AcDbDictionary
281
     1
  3
A0
350
48
  3
A1
350
49
  3
A2
350
4A
  3
A3
350
4B
  3
A4
350
4C
  3
A5
350
4D
  3
A6
350
4E
  3
A7
350
4F
  3
A8
350
50
  3
A9
350
51
  3
B0
350
52
  3
B1
350
53
  3
B2
350
54
  3
B3
350
55
  3
B4
350
56
  3
B5
350
57
  3
B6
350
58
  3
B7
350
59
  3
B8
350
5A
  3
B9
350
5B
  3
C0
350
5C
  3
C1
350
5D
  3
C2
350
5E
  3
C3
350
5F
  3
C4
350
60
  3
C5
350
61
  3
C6
350
62
  3
C7
350
63
  3
C8
350
64
  3
C9
350
65
  3
D0
350
66
  3
D1
350
67
  3
D2
350
68
  0
XRECORD
  5
EC
102
{ACAD_REACTORS
330
C
102
}
330
C
100
AcDbXrecord
280
     1
  1
DWGPROPS COOKIE
  2

  3

  4

  6

  7

  8
b.kav
  9

300
=
301
=
302
=
303
=
304
=
305
=
306
=
307
=
308
=
309
=
 40
0.0
 41
2459935.574900231
 42
2459935.574900417
  1

 90
        0
  0
LAYOUT
  5
1E
102
{ACAD_REACTORS
330
1A
102
}
330
1A
100
AcDbPlotSettings
  1

  2
none_device
  4

  6

 40
0.0
 41
0.0
 42
0.0
 43
0.0
 44
0.0
 45
0.0
 46
0.0
 47
0.0
 48
0.0
 49
0.0
140
0.0
141
0.0
142
1.0
143
1.0
 70
   688
 72
     1
 73
     0
 74
     5
  7

 75
    16
147
1.0
148
0.0
149
0.0
100
AcDbLayout
  1
Layout1
 70
     1
 71
     1
 10
0.0
 20
0.0
 11
420.0
 21
297.0
 12
0.0
 22
0.0
 32
0.0
 14
1.0000000000E+20
 24
1.0000000000E+20
 34
1.0000000000E+20
 15
-1.0000000000E+20
 25
-1.0000000000E+20
 35
-1.0000000000E+20
146
0.0
 13
0.0
 23
0.0
 33
0.0
 16
1.0
 26
0.0
 36
0.0
 17
0.0
 27
1.0
 37
0.0
 76
     0
330
1B
  0
LAYOUT
  5
26
102
{ACAD_REACTORS
330
1A
102
}
330
1A
100
AcDbPlotSettings
  1

  2
none_device
  4

  6

 40
0.0
 41
0.0
 42
0.0
 43
0.0
 44
0.0
 45
0.0
 46
0.0
 47
0.0
 48
0.0
 49
0.0
140
0.0
141
0.0
142
1.0
143
1.0
 70
   688
 72
     1
 73
     0
 74
     5
  7

 75
    16
147
1.0
148
0.0
149
0.0
100
AcDbLayout
  1
Layout2
 70
     1
 71
     2
 10
0.0
 20
0.0
 11
0.0
 21
0.0
 12
0.0
 22
0.0
 32
0.0
 14
0.0
 24
0.0
 34
0.0
 15
0.0
 25
0.0
 35
0.0
146
0.0
 13
0.0
 23
0.0
 33
0.0
 16
1.0
 26
0.0
 36
0.0
 17
0.0
 27
1.0
 37
0.0
 76
     0
330
23
  0
LAYOUT
  5
22
102
{ACAD_REACTORS
330
1A
102
}
330
1A
100
AcDbPlotSettings
  1

  2
none_device
  4
Letter_(8.50_x_11.00_Inches)
  6

 40
6.35
 41
6.35
 42
6.35000508
 43
6.35000508
 44
215.9
 45
279.4
 46
0.0
 47
0.0
 48
0.0
 49
0.0
140
0.0
141
0.0
142
1.0
143
1.0
 70
  1712
 72
     1
 73
     0
 74
     0
  7

 75
     0
147
1.0
148
0.0
149
0.0
100
AcDbLayout
  1
Model
 70
     1
 71
     0
 10
0.0
 20
0.0
 11
279.4
 21
215.9
 12
0.0
 22
0.0
 32
0.0
 14
0.0
 24
0.0
 34
0.0
 15
279.4
 25
215.9
 35
0.0
146
0.0
 13
0.0
 23
0.0
 33
0.0
 16
1.0
 26
0.0
 36
0.0
 17
0.0
 27
1.0
 37
0.0
 76
     0
330
1F
331
29
  0
MLINESTYLE
  5
18
102
{ACAD_REACTORS
330
17
102
}
330
17
100
AcDbMlineStyle
  2
Standard
 70
     0
  3

 62
   256
 51
90.0
 52
90.0
 71
     2
 49
0.5
 62
   256
  6
BYLAYER
 49
-0.5
 62
   256
  6
BYLAYER
  0
ACDBPLACEHOLDER
  5
F
102
{ACAD_REACTORS
330
E
102
}
330
E
  0
SCALE
  5
48
102
{ACAD_REACTORS
330
47
102
}
330
47
100
AcDbScale
 70
     0
300
1:1
140
1.0
141
1.0
290
     1
  0
SCALE
  5
49
102
{ACAD_REACTORS
330
47
102
}
330
47
100
AcDbScale
 70
     0
300
1:2
140
1.0
141
2.0
290
     0
  0
SCALE
  5
4A
102
{ACAD_REACTORS
330
47
102
}
330
47
100
AcDbScale
 70
     0
300
1:4
140
1.0
141
4.0
290
     0
  0
SCALE
  5
4B
102
{ACAD_REACTORS
330
47
102
}
330
47
100
AcDbScale
 70
     0
300
1:5
140
1.0
141
5.0
290
     0
  0
SCALE
  5
4C
102
{ACAD_REACTORS
330
47
102
}
330
47
100
AcDbScale
 70
     0
300
1:8
140
1.0
141
8.0
290
     0
  0
SCALE
  5
4D
102
{ACAD_REACTORS
330
47
102
}
330
47
100
AcDbScale
 70
     0
300
1:10
140
1.0
141
10.0
290
     0
  0
SCALE
  5
4E
102
{ACAD_REACTORS
330
47
102
}
330
47
100
AcDbScale
 70
     0
300
1:16
140
1.0
141
16.0
290
     0
  0
SCALE
  5
4F
102
{ACAD_REACTORS
330
47
102
}
330
47
100
AcDbScale
 70
     0
300
1:20
140
1.0
141
20.0
290
     0
  0
SCALE
  5
50
102
{ACAD_REACTORS
330
47
102
}
330
47
100
AcDbScale
 70
     0
300
1:30
140
1.0
141
30.0
290
     0
  0
SCALE
  5
51
102
{ACAD_REACTORS
330
47
102
}
330
47
100
AcDbScale
 70
     0
300
1:40
140
1.0
141
40.0
290
     0
  0
SCALE
  5
52
102
{ACAD_REACTORS
330
47
102
}
330
47
100
AcDbScale
 70
     0
300
1:50
140
1.0
141
50.0
290
     0
  0
SCALE
  5
53
102
{ACAD_REACTORS
330
47
102
}
330
47
100
AcDbScale
 70
     0
300
1:100
140
1.0
141
100.0
290
     0
  0
SCALE
  5
54
102
{ACAD_REACTORS
330
47
102
}
330
47
100
AcDbScale
 70
     0
300
2:1
140
2.0
141
1.0
290
     0
  0
SCALE
  5
55
102
{ACAD_REACTORS
330
47
102
}
330
47
100
AcDbScale
 70
     0
300
4:1
140
4.0
141
1.0
290
     0
  0
SCALE
  5
56
102
{ACAD_REACTORS
330
47
102
}
330
47
100
AcDbScale
 70
     0
300
8:1
140
8.0
141
1.0
290
     0
  0
SCALE
  5
57
102
{ACAD_REACTORS
330
47
102
}
330
47
100
AcDbScale
 70
     0
300
10:1
140
10.0
141
1.0
290
     0
  0
SCALE
  5
58
102
{ACAD_REACTORS
330
47
102
}
330
47
100
AcDbScale
 70
     0
300
100:1
140
100.0
141
1.0
290
     0
  0
SCALE
  5
59
102
{ACAD_REACTORS
330
47
102
}
330
47
100
AcDbScale
 70
     0
300
1/128" = 1'-0"
140
0.0078125
141
12.0
290
     0
  0
SCALE
  5
5A
102
{ACAD_REACTORS
330
47
102
}
330
47
100
AcDbScale
 70
     0
300
1/64" = 1'-0"
140
0.015625
141
12.0
290
     0
  0
SCALE
  5
5B
102
{ACAD_REACTORS
330
47
102
}
330
47
100
AcDbScale
 70
     0
300
1/32" = 1'-0"
140
0.03125
141
12.0
290
     0
  0
SCALE
  5
5C
102
{ACAD_REACTORS
330
47
102
}
330
47
100
AcDbScale
 70
     0
300
1/16" = 1'-0"
140
0.0625
141
12.0
290
     0
  0
SCALE
  5
5D
102
{ACAD_REACTORS
330
47
102
}
330
47
100
AcDbScale
 70
     0
300
3/32" = 1'-0"
140
0.09375
141
12.0
290
     0
  0
SCALE
  5
5E
102
{ACAD_REACTORS
330
47
102
}
330
47
100
AcDbScale
 70
     0
300
1/8" = 1'-0"
140
0.125
141
12.0
290
     0
  0
SCALE
  5
5F
102
{ACAD_REACTORS
330
47
102
}
330
47
100
AcDbScale
 70
     0
300
3/16" = 1'-0"
140
0.1875
141
12.0
290
     0
  0
SCALE
  5
60
102
{ACAD_REACTORS
330
47
102
}
330
47
100
AcDbScale
 70
     0
300
1/4" = 1'-0"
140
0.25
141
12.0
290
     0
  0
SCALE
  5
61
102
{ACAD_REACTORS
330
47
102
}
330
47
100
AcDbScale
 70
     0
300
3/8" = 1'-0"
140
0.375
141
12.0
290
     0
  0
SCALE
  5
62
102
{ACAD_REACTORS
330
47
102
}
330
47
100
AcDbScale
 70
     0
300
1/2" = 1'-0"
140
0.5
141
12.0
290
     0
  0
SCALE
  5
63
102
{ACAD_REACTORS
330
47
102
}
330
47
100
AcDbScale
 70
     0
300
3/4" = 1'-0"
140
0.75
141
12.0
290
     0
  0
SCALE
  5
64
102
{ACAD_REACTORS
330
47
102
}
330
47
100
AcDbScale
 70
     0
300
1" = 1'-0"
140
1.0
141
12.0
290
     0
  0
SCALE
  5
65
102
{ACAD_REACTORS
330
47
102
}
330
47
100
AcDbScale
 70
     0
300
1-1/2" = 1'-0"
140
1.5
141
12.0
290
     0
  0
SCALE
  5
66
102
{ACAD_REACTORS
330
47
102
}
330
47
100
AcDbScale
 70
     0
300
3" = 1'-0"
140
3.0
141
12.0
290
     0
  0
SCALE
  5
67
102
{ACAD_REACTORS
330
47
102
}
330
47
100
AcDbScale
 70
     0
300
6" = 1'-0"
140
6.0
141
12.0
290
     0
  0
SCALE
  5
68
102
{ACAD_REACTORS
330
47
102
}
330
47
100
AcDbScale
 70
     0
300
1'-0" = 1'-0"
140
12.0
141
12.0
290
     0
  0
ENDSEC
  0
EOF
